  0
SECTION
  2
HEADER
  9
$ACADVER
  1
AC1009
  9
$INSBASE
 10
0.0
 20
0.0
 30
0.0
  9
$EXTMIN
 10
-0.3962313703095077
 20
1.5752970427032771
 30
0.0
  9
$EXTMAX
 10
7.055508056702771
 20
18.34920080094583
 30
0.0
  9
$LIMMIN
 10
0.0
 20
0.0
  9
$LIMMAX
 10
12.0
 20
9.0
  9
$ORTHOMODE
 70
     1
  9
$REGENMODE
 70
     1
  9
$FILLMODE
 70
     1
  9
$QTEXTMODE
 70
     0
  9
$MIRRTEXT
 70
     1
  9
$DRAGMODE
 70
     2
  9
$LTSCALE
 40
0.6
  9
$OSMODE
 70
   111
  9
$ATTMODE
 70
     1
  9
$TEXTSIZE
 40
0.2
  9
$TRACEWID
 40
0.05
  9
$TEXTSTYLE
  7
ARIAL
  9
$CLAYER
  8
2-7
  9
$CELTYPE
  6
BYLAYER
  9
$CECOLOR
 62
   256
  9
$DIMSCALE
 40
1.0
  9
$DIMASZ
 40
0.125
  9
$DIMEXO
 40
0.0625
  9
$DIMDLI
 40
0.25
  9
$DIMRND
 40
0.0
  9
$DIMDLE
 40
0.0
  9
$DIMEXE
 40
0.0625
  9
$DIMTP
 40
0.0
  9
$DIMTM
 40
0.0
  9
$DIMTXT
 40
0.125
  9
$DIMCEN
 40
0.09
  9
$DIMTSZ
 40
0.0
  9
$DIMTOL
 70
     0
  9
$DIMLIM
 70
     0
  9
$DIMTIH
 70
     1
  9
$DIMTOH
 70
     1
  9
$DIMSE1
 70
     0
  9
$DIMSE2
 70
     0
  9
$DIMTAD
 70
     0
  9
$DIMZIN
 70
     4
  9
$DIMBLK
  1

  9
$DIMASO
 70
     1
  9
$DIMSHO
 70
     1
  9
$DIMPOST
  1

  9
$DIMAPOST
  1

  9
$DIMALT
 70
     0
  9
$DIMALTD
 70
     2
  9
$DIMALTF
 40
25.399999999999999
  9
$DIMLFAC
 40
1.0
  9
$DIMTOFL
 70
     0
  9
$DIMTVP
 40
0.0
  9
$DIMTIX
 70
     0
  9
$DIMSOXD
 70
     0
  9
$DIMSAH
 70
     0
  9
$DIMBLK1
  1

  9
$DIMBLK2
  1

  9
$DIMSTYLE
  2
STANDARD
  9
$DIMCLRD
 70
   256
  9
$DIMCLRE
 70
   256
  9
$DIMCLRT
 70
   256
  9
$DIMTFAC
 40
1.0
  9
$DIMGAP
 40
0.09
  9
$LUNITS
 70
     2
  9
$LUPREC
 70
     4
  9
$SKETCHINC
 40
0.1
  9
$FILLETRAD
 40
0.5
  9
$AUNITS
 70
     0
  9
$AUPREC
 70
     0
  9
$MENU
  1
.
  9
$ELEVATION
 40
0.0
  9
$PELEVATION
 40
0.0
  9
$THICKNESS
 40
0.0
  9
$LIMCHECK
 70
     0
  9
$BLIPMODE
 70
     0
  9
$CHAMFERA
 40
0.0
  9
$CHAMFERB
 40
0.0
  9
$SKPOLY
 70
     0
  9
$TDCREATE
 40
2452392.3517971062
  9
$TDUPDATE
 40
2452554.461154745
  9
$TDINDWG
 40
0.2245060185
  9
$TDUSRTIMER
 40
0.2245034722
  9
$USRTIMER
 70
     1
  9
$ANGBASE
 50
0.0
  9
$ANGDIR
 70
     0
  9
$PDMODE
 70
     3
  9
$PDSIZE
 40
0.0
  9
$PLINEWID
 40
0.0
  9
$COORDS
 70
     2
  9
$SPLFRAME
 70
     0
  9
$SPLINETYPE
 70
     6
  9
$SPLINESEGS
 70
     8
  9
$ATTDIA
 70
     0
  9
$ATTREQ
 70
     1
  9
$HANDLING
 70
  4097
  9
$HANDSEED
  5
12BB
  9
$SURFTAB1
 70
     6
  9
$SURFTAB2
 70
     6
  9
$SURFTYPE
 70
     6
  9
$SURFU
 70
     6
  9
$SURFV
 70
     6
  9
$UCSNAME
  2

  9
$UCSORG
 10
0.0
 20
0.0
 30
0.0
  9
$UCSXDIR
 10
1.0
 20
0.0
 30
0.0
  9
$UCSYDIR
 10
0.0
 20
1.0
 30
0.0
  9
$PUCSNAME
  2

  9
$PUCSORG
 10
0.0
 20
0.0
 30
0.0
  9
$PUCSXDIR
 10
1.0
 20
0.0
 30
0.0
  9
$PUCSYDIR
 10
0.0
 20
1.0
 30
0.0
  9
$USERI1
 70
     0
  9
$USERI2
 70
     0
  9
$USERI3
 70
     0
  9
$USERI4
 70
     0
  9
$USERI5
 70
     0
  9
$USERR1
 40
1.0
  9
$USERR2
 40
25.399999999999999
  9
$USERR3
 40
0.0
  9
$USERR4
 40
0.0
  9
$USERR5
 40
0.0
  9
$WORLDVIEW
 70
     1
  9
$SHADEDGE
 70
     3
  9
$SHADEDIF
 70
    70
  9
$TILEMODE
 70
     1
  9
$MAXACTVP
 70
    48
  9
$PLIMCHECK
 70
     0
  9
$PEXTMIN
 10
1.0000000000000000E+020
 20
1.0000000000000000E+020
 30
1.0000000000000000E+020
  9
$PEXTMAX
 10
-1.0000000000000000E+020
 20
-1.0000000000000000E+020
 30
-1.0000000000000000E+020
  9
$PLIMMIN
 10
0.0
 20
0.0
  9
$PLIMMAX
 10
12.0
 20
9.0
  9
$UNITMODE
 70
     0
  9
$VISRETAIN
 70
     1
  9
$PLINEGEN
 70
     0
  9
$PSLTSCALE
 70
     1
  0
ENDSEC
  0
SECTION
  2
TABLES
  0
TABLE
  2
VPORT
 70
     2
  0
VPORT
  2
*ACTIVE
 70
     0
 10
0.0
 20
0.0
 11
1.0
 21
1.0
 12
3.3294067631119471
 22
9.9624126758772515
 13
0.0
 23
0.0
 14
0.5
 24
0.5
 15
0.5
 25
0.5
 16
0.0
 26
0.0
 36
1.0
 17
0.0
 27
0.0
 37
0.0
 40
17.232407508800652
 41
1.3665594855305461
 42
50.0
 43
0.0
 44
0.0
 50
0.0
 51
0.0
 71
     0
 72
   100
 73
     1
 74
     2
 75
     0
 76
     0
 77
     0
 78
     0
  0
ENDTAB
  0
TABLE
  2
LTYPE
 70
     3
  0
LTYPE
  2
CONTINUOUS
 70
     0
  3
Solid line
 72
    65
 73
     0
 40
0.0
  0
LTYPE
  2
CENTER
 70
     0
  3
Center ____ _ ____ _ ____ _ ____ _ ____ _ ____
 72
    65
 73
     4
 40
2.0
 49
1.25
 49
-0.25
 49
0.25
 49
-0.25
  0
LTYPE
  2
HIDDEN
 70
     0
  3
Hidden __ __ __ __ __ __ __ __ __ __ __ __ __ _
 72
    65
 73
     2
 40
0.375
 49
0.25
 49
-0.125
  0
ENDTAB
  0
TABLE
  2
LAYER
 70
     6
  0
LAYER
  2
0
 70
     0
 62
     7
  6
CONTINUOUS
  0
LAYER
  2
CENTERLINE
 70
     0
 62
     1
  6
CENTER
  0
LAYER
  2
2-7
 70
     0
 62
     2
  6
CONTINUOUS
  0
LAYER
  2
ADAPTER
 70
     0
 62
     3
  6
CONTINUOUS
  0
LAYER
  2
DRIVE_TANG
 70
     0
 62
     4
  6
CONTINUOUS
  0
LAYER
  2
DRIVE_INPUT
 70
     0
 62
     7
  6
CONTINUOUS
  0
ENDTAB
  0
TABLE
  2
STYLE
 70
     2
  0
STYLE
  2
STANDARD
 70
     0
 40
0.0
 41
1.0
 50
0.0
 71
     0
 42
0.2
  3
txt
  4

  0
STYLE
  2
ARIAL
 70
     0
 40
0.0
 41
1.0
 50
0.0
 71
     0
 42
0.2
  3
txt
  4

  0
ENDTAB
  0
TABLE
  2
VIEW
 70
     0
  0
ENDTAB
  0
TABLE
  2
UCS
 70
     0
  0
ENDTAB
  0
TABLE
  2
APPID
 70
     1
  0
APPID
  2
ACAD
 70
     0
  0
ENDTAB
  0
TABLE
  2
DIMSTYLE
 70
     1
  0
DIMSTYLE
  2
STANDARD
 70
     0
  3

  4

  5

  6

  7

 40
1.0
 41
0.125
 42
0.0625
 43
0.25
 44
0.0625
 45
0.0
 46
0.0
 47
0.0
 48
0.0
140
0.125
141
0.09
142
0.0
143
25.399999999999999
144
1.0
145
0.0
146
1.0
147
0.09
 71
     0
 72
     0
 73
     1
 74
     1
 75
     0
 76
     0
 77
     0
 78
     4
170
     0
171
     2
172
     0
173
     0
174
     0
175
     0
176
   256
177
   256
178
   256
  0
ENDTAB
  0
ENDSEC
  0
SECTION
  2
BLOCKS
  0
BLOCK
  8
0
  2
$MODEL_SPACE
 70
     0
 10
0.0
 20
0.0
 30
0.0
  3
$MODEL_SPACE
  1

  0
ENDBLK
  5
21
  8
0
  0
BLOCK
 67
     1
  8
0
  2
$PAPER_SPACE
 70
     0
 10
0.0
 20
0.0
 30
0.0
  3
$PAPER_SPACE
  1

  0
ENDBLK
  5
1D
 67
     1
  8
0
  0
ENDSEC
  0
SECTION
  2
ENTITIES
  0
LINE
  5
CE
  8
2-7
 10
0.3611443491117726
 20
4.0650609019032728
 30
0.0
 11
5.1060881716787856
 21
4.0650609019032737
 31
0.0
  0
LINE
  5
CF
  8
2-7
 10
0.3611443491117737
 20
7.3233287227032777
 30
0.0
 11
5.1060881716787856
 21
7.3233287227032751
 31
0.0
  0
LINE
  5
18B
  8
ADAPTER
 10
0.6076319403952797
 20
7.7233287355032791
 30
0.0
 11
4.8596005803952842
 21
7.7233287355032774
 31
0.0
  0
LINE
  5
18C
  8
ADAPTER
 10
0.6076319403952797
 20
7.7233287355032791
 30
0.0
 11
0.6076319403952797
 21
7.3233287227032777
 31
0.0
  0
LINE
  5
1D3
  8
ADAPTER
 10
1.2729862923952799
 20
10.06348629070327
 30
0.0
 11
4.1942462283952811
 21
10.06348629070327
 31
0.0
  0
LINE
  5
1D5
  8
ADAPTER
 10
1.2729862923952799
 20
10.06348629070327
 30
0.0
 11
1.2729862923952799
 21
7.7233287355032774
 31
0.0
  0
LINE
  5
1D6
  8
ADAPTER
 10
4.1942462283952811
 20
10.06348629070327
 30
0.0
 11
4.1942462283952811
 21
9.9650610907032782
 31
0.0
  0
LINE
  5
1D7
  8
ADAPTER
 10
3.6485769195952811
 20
9.9650610907032817
 30
0.0
 11
4.6328289195952808
 21
9.9650610907032764
 31
0.0
  0
LINE
  5
1D8
  8
ADAPTER
 10
4.6328289195952808
 20
9.9650610907032764
 30
0.0
 11
4.6328289195952808
 21
8.636320890703276
 31
0.0
  0
LINE
  5
1D9
  8
ADAPTER
 10
4.6328289195952808
 20
8.636320890703276
 30
0.0
 11
3.6485769195952811
 21
8.636320890703276
 31
0.0
  0
LINE
  5
1DA
  8
ADAPTER
  6
HIDDEN
 10
3.6485769195952811
 20
9.9650610907032764
 30
0.0
 11
3.6485769195952811
 21
8.636320890703276
 31
0.0
  0
LINE
  5
1DB
  8
ADAPTER
 10
4.1942462283952811
 20
8.636320890703276
 30
0.0
 11
4.1942462283952811
 21
7.7233287355032774
 31
0.0
  0
CIRCLE
  5
1DC
  8
ADAPTER
 10
4.3403800913392798
 20
9.3006909907032771
 30
0.0
 40
0.219347573948256
  0
POLYLINE
  5
1DD
  8
ADAPTER
 66
     1
 10
0.0
 20
0.0
 30
0.0
 70
     1
  0
VERTEX
  5
1298
  8
ADAPTER
 10
4.2039981427153092
 20
9.5369114549552432
 30
0.0
  0
VERTEX
  5
1299
  8
ADAPTER
 10
4.0676161940913369
 20
9.3006909907032771
 30
0.0
  0
VERTEX
  5
129A
  8
ADAPTER
 10
4.2039981427153092
 20
9.0644705264513092
 30
0.0
  0
VERTEX
  5
129B
  8
ADAPTER
 10
4.4767620399632531
 20
9.0644705264513092
 30
0.0
  0
VERTEX
  5
129C
  8
ADAPTER
 10
4.6131439885872254
 20
9.3006909907032771
 30
0.0
  0
VERTEX
  5
129D
  8
ADAPTER
 10
4.4767620399632531
 20
9.5369114549552432
 30
0.0
  0
SEQEND
  5
129E
  8
ADAPTER
  0
LINE
  5
225
  8
ADAPTER
 10
0.6076319403952797
 20
7.3233287227032768
 30
0.0
 11
4.8596005803952842
 21
7.3233287227032777
 31
0.0
  0
LINE
  5
226
  8
ADAPTER
 10
4.6328289195952816
 20
16.764555080945829
 30
0.0
 11
4.6328289195952816
 21
16.006681040945828
 31
0.0
  0
LINE
  5
270
  8
ADAPTER
 10
4.6328289195952816
 20
16.764555080945829
 30
0.0
 11
3.2900399623952459
 21
17.317804414196281
 31
0.0
  0
LINE
  5
271
  8
ADAPTER
 10
4.0184010243043602
 20
14.916913267126599
 30
0.0
 11
3.2900399623952459
 21
14.61681750769538
 31
0.0
  0
LINE
  5
272
  8
ADAPTER
 10
4.6328289195952816
 20
15.170066840945831
 30
0.0
 11
4.0184010243043602
 21
15.170066840945831
 31
0.0
  0
LINE
  5
273
  8
ADAPTER
 10
4.0184010243043602
 20
15.170066840945831
 30
0.0
 11
4.0184010243043602
 21
14.916913267126599
 31
0.0
  0
LINE
  5
276
  8
ADAPTER
 10
4.6131439885872254
 20
15.111011720945831
 30
0.0
 11
4.6131439885872254
 21
14.8650932824719
 31
0.0
  0
LINE
  5
277
  8
ADAPTER
 10
4.4767620399632531
 20
15.111011720945831
 30
0.0
 11
4.4767620399632531
 21
14.865093282471889
 31
0.0
  0
LINE
  5
278
  8
ADAPTER
 10
4.2039981427153092
 20
15.111011720945831
 30
0.0
 11
4.2039981427153092
 21
14.865093282471889
 31
0.0
  0
LINE
  5
279
  8
ADAPTER
 10
4.067616194091336
 20
15.111011720945831
 30
0.0
 11
4.067616194091336
 21
14.8650932824719
 31
0.0
  0
LINE
  5
27B
  8
ADAPTER
 10
4.0479311540913372
 20
15.111011720945831
 30
0.0
 11
4.6328290285872251
 21
15.111011720945831
 31
0.0
  0
LINE
  5
27C
  8
ADAPTER
 10
4.0479311540913372
 20
15.111011720945831
 30
0.0
 11
4.0479311540913372
 21
15.170066840945831
 31
0.0
  0
LINE
  5
27D
  8
ADAPTER
 10
4.6328290285872251
 20
15.111011720945831
 30
0.0
 11
4.6328290285872251
 21
15.170066840945831
 31
0.0
  0
LINE
  5
27F
  8
ADAPTER
 10
4.1358071684033231
 20
14.82900474215926
 30
0.0
 11
4.5449530142752383
 21
14.82900474215926
 31
0.0
  0
ARC
  5
280
  8
ADAPTER
 10
4.1358071684033231
 20
14.9114740200512
 30
0.0
 40
0.0824692778919425
 50
214.2219499523211
 51
325.77805004767828
  0
ARC
  5
282
  8
ADAPTER
 10
4.5449530142752383
 20
14.9114740200512
 30
0.0
 40
0.0824692778919425
 50
214.22194995232161
 51
325.7780500476789
  0
ARC
  5
283
  8
ADAPTER
 10
4.340380091339286
 20
15.10474904325808
 30
0.0
 40
0.2757443010988207
 50
240.356905410038
 51
299.6430945899599
  0
LINE
  5
36A
  8
DRIVE_INPUT
  6
HIDDEN
 10
2.5367658603952812
 20
7.4020688827032757
 30
0.0
 11
2.5367658603952812
 21
7.7957696827032761
 31
0.0
  0
LINE
  5
36B
  8
DRIVE_INPUT
  6
HIDDEN
 10
2.9304666603952811
 20
7.7957696827032761
 30
0.0
 11
2.9304666603952811
 21
7.4020688827032757
 31
0.0
  0
LINE
  5
36C
  8
DRIVE_INPUT
  6
HIDDEN
 10
2.1824351403952811
 20
7.7957696827032761
 30
0.0
 11
2.1824351403952811
 21
7.3233287227032768
 31
0.0
  0
LINE
  5
36D
  8
DRIVE_INPUT
  6
HIDDEN
 10
3.2847973803952808
 20
7.7957696827032761
 30
0.0
 11
3.2847973803952808
 21
7.3233287227032777
 31
0.0
  0
LINE
  5
36E
  8
DRIVE_INPUT
  6
HIDDEN
 10
2.9304666603952811
 20
7.4020688827032757
 30
0.0
 11
2.5367658603952812
 21
7.4020688827032757
 31
0.0
  0
LINE
  5
36F
  8
DRIVE_INPUT
  6
HIDDEN
 10
2.1824351403952811
 20
7.7957696827032761
 30
0.0
 11
2.5367658603952812
 21
7.7957696827032761
 31
0.0
  0
LINE
  5
370
  8
DRIVE_INPUT
  6
HIDDEN
 10
2.9304666603952811
 20
7.7957696827032761
 30
0.0
 11
3.2847973803952808
 21
7.7957696827032761
 31
0.0
  0
LINE
  5
43C
  8
DRIVE_TANG
  6
HIDDEN
 10
2.191096557995281
 20
8.9871083035032768
 30
0.0
 11
3.2761359627952809
 21
8.9871083035032768
 31
0.0
  0
LINE
  5
43D
  8
DRIVE_TANG
  6
HIDDEN
 10
3.2761359627952809
 20
8.9871083035032768
 30
0.0
 11
3.2761359627952809
 21
7.8189980299032769
 31
0.0
  0
LINE
  5
43E
  8
DRIVE_TANG
  6
HIDDEN
 10
2.5367658603952812
 20
7.4020688827032757
 30
0.0
 11
2.9304666603952811
 21
7.4020688827032757
 31
0.0
  0
LINE
  5
43F
  8
DRIVE_TANG
  6
HIDDEN
 10
2.191096557995281
 20
8.9871083035032768
 30
0.0
 11
2.191096557995281
 21
7.8189980299032769
 31
0.0
  0
LINE
  5
440
  8
DRIVE_TANG
  6
HIDDEN
 10
2.191096557995281
 20
7.8189980299032769
 30
0.0
 11
2.5367658603952812
 21
7.818998029903276
 31
0.0
  0
LINE
  5
937
  8
ADAPTER
  6
HIDDEN
 10
3.8143249563952821
 20
10.06348629070327
 30
0.0
 11
3.8143249563952821
 21
7.7233287355032774
 31
0.0
  0
LINE
  5
9F5
  8
2-7
  6
HIDDEN
 10
3.8162934603952809
 20
7.2052184827032759
 30
0.0
 11
1.6509390603952809
 21
7.2052184827032759
 31
0.0
  0
LINE
  5
9F6
  8
2-7
  6
HIDDEN
 10
1.6509390603952809
 20
7.2052184827032759
 30
0.0
 11
1.6509390603952809
 21
7.323328722703276
 31
0.0
  0
LINE
  5
9F8
  8
2-7
  6
HIDDEN
 10
3.8162934603952809
 20
7.2052184827032759
 30
0.0
 11
3.8162934603952809
 21
7.323328722703276
 31
0.0
  0
LINE
  5
A05
  8
2-7
  6
HIDDEN
 10
1.4599941723952841
 20
6.8902578427032752
 30
0.0
 11
1.2237736923952811
 21
6.890257842703277
 31
0.0
  0
LINE
  5
A06
  8
2-7
  6
HIDDEN
 10
1.4403091323952819
 20
6.8508877627032749
 30
0.0
 11
1.341883932395282
 21
6.7784975941480967
 31
0.0
  0
LINE
  5
A07
  8
2-7
  6
HIDDEN
 10
1.4599941723952821
 20
7.3233287227032751
 30
0.0
 11
1.4599941723952841
 21
6.8902578427032752
 31
0.0
  0
LINE
  5
A08
  8
2-7
  6
HIDDEN
 10
1.4403091323952819
 20
7.3233287227032751
 30
0.0
 11
1.4403091323952819
 21
6.8508877627032749
 31
0.0
  0
LINE
  5
A09
  8
2-7
  6
HIDDEN
 10
1.2434587323952819
 20
7.3233287227032751
 30
0.0
 11
1.243458732395283
 21
6.8508877627032749
 31
0.0
  0
LINE
  5
A0A
  8
2-7
  6
HIDDEN
 10
1.223773692395282
 20
7.3233287227032751
 30
0.0
 11
1.2237736923952811
 21
6.890257842703277
 31
0.0
  0
LINE
  5
A0B
  8
2-7
  6
HIDDEN
 10
1.243458732395283
 20
6.8508877627032749
 30
0.0
 11
1.341883932395282
 21
6.7784975941480967
 31
0.0
  0
LINE
  5
A26
  8
DRIVE_INPUT
 10
2.930466660395282
 20
16.48214156130317
 30
0.0
 11
2.930466660395282
 21
15.452480360588501
 31
0.0
  0
LINE
  5
A27
  8
DRIVE_INPUT
 10
2.5367658603952821
 20
15.452480360588501
 30
0.0
 11
2.5367658603952821
 21
16.48214156130317
 31
0.0
  0
CIRCLE
  5
A2B
  8
DRIVE_INPUT
 10
2.7336162603952809
 20
15.967310960945831
 30
0.0
 40
0.5511811200000001
  0
LINE
  5
A2F
  8
ADAPTER
 10
3.8143249563952821
 20
7.3233287227032768
 30
0.0
 11
3.8143249563952821
 21
7.2170295067032759
 31
0.0
  0
LINE
  5
A30
  8
ADAPTER
 10
3.8143249563952821
 20
7.2170295067032759
 30
0.0
 11
1.65290756439528
 21
7.217029506703275
 31
0.0
  0
LINE
  5
A31
  8
ADAPTER
 10
1.65290756439528
 20
7.3233287227032768
 30
0.0
 11
1.65290756439528
 21
7.217029506703275
 31
0.0
  0
LINE
  5
A33
  8
ADAPTER
  6
HIDDEN
 10
3.5210178603952809
 20
7.7233287355032774
 30
0.0
 11
3.5210178603952809
 21
7.2170295067032759
 31
0.0
  0
LINE
  5
A34
  8
ADAPTER
  6
HIDDEN
 10
1.946214660395281
 20
7.7233287355032774
 30
0.0
 11
1.946214660395281
 21
7.2170295067032759
 31
0.0
  0
LINE
  5
A35
  8
ADAPTER
 10
1.27351698287321
 20
16.006681040945828
 30
0.0
 11
1.6536249259805951
 21
16.006681040945828
 31
0.0
  0
LINE
  5
A36
  8
ADAPTER
 10
3.8136075948099668
 20
16.006681040945828
 30
0.0
 11
4.6328289195952816
 21
16.006681040945828
 31
0.0
  0
LINE
  5
A37
  8
ADAPTER
 10
3.8136075948099668
 20
15.92794088094583
 30
0.0
 11
4.6328289195952816
 21
15.92794088094583
 31
0.0
  0
LINE
  5
A38
  8
ADAPTER
 10
1.27351698287321
 20
15.92794088094583
 30
0.0
 11
1.6536249259805951
 21
15.92794088094583
 31
0.0
  0
LINE
  5
A39
  8
ADAPTER
 10
4.6328289195952816
 20
15.92794088094583
 30
0.0
 11
4.6328289195952816
 21
15.170066840945831
 31
0.0
  0
LINE
  5
A3B
  8
ADAPTER
  6
HIDDEN
 10
1.6536249259805951
 20
8.9297360223405224
 30
0.0
 11
1.2729862923952799
 21
8.9297360223405224
 31
0.0
  0
LINE
  5
A3C
  8
ADAPTER
  6
HIDDEN
 10
3.8143249563952821
 20
8.9297360223405224
 30
0.0
 11
4.6328289195952799
 21
8.9297360223405224
 31
0.0
  0
LINE
  5
A3D
  8
ADAPTER
  6
HIDDEN
 10
1.65290756439528
 20
10.06348629070327
 30
0.0
 11
1.65290756439528
 21
7.7233287355032774
 31
0.0
  0
CIRCLE
  5
A3E
  8
ADAPTER
 10
2.7336162603952809
 20
15.967310960945831
 30
0.0
 40
1.460629967999999
  0
CIRCLE
  5
A3F
  8
ADAPTER
 10
2.7336162603952809
 20
15.967310960945831
 30
0.0
 40
1.080708695999999
  0
CIRCLE
  5
A41
  8
ADAPTER
 10
2.7336162603952809
 20
15.967310960945831
 30
0.0
 40
0.7874016000000002
  0
CIRCLE
  5
A43
  8
ADAPTER
 10
4.1253485883952807
 20
17.359043288945831
 30
0.0
 40
0.12795276
  0
CIRCLE
  5
A45
  8
ADAPTER
  6
HIDDEN
 10
4.4383407243952826
 20
14.98308783276129
 30
0.0
 40
0.12795276
  0
LINE
  5
A46
  8
ADAPTER
  6
HIDDEN
 10
1.469836692395289
 20
7.7233287355032774
 30
0.0
 11
1.469836692395289
 21
7.3233287227032768
 31
0.0
  0
LINE
  5
A47
  8
ADAPTER
  6
HIDDEN
 10
1.213931172395289
 20
7.7233287355032774
 30
0.0
 11
1.213931172395289
 21
7.3233287227032768
 31
0.0
  0
CIRCLE
  5
DC6
  8
CENTERLINE
 10
2.733616260395284
 20
15.967310960945831
 30
0.0
 40
0.66929136
  0
CIRCLE
  5
DC7
  8
2-7
  6
HIDDEN
 10
2.0643249003952842
 20
15.967310960945831
 30
0.0
 40
0.273622056
  0
CIRCLE
  5
DC8
  8
2-7
  6
HIDDEN
 10
1.4737737003952851
 20
15.967310960945831
 30
0.0
 40
0.8641732559999997
  0
CIRCLE
  5
DC9
  8
2-7
  6
HIDDEN
 10
0.8832225003952841
 20
15.967310960945831
 30
0.0
 40
0.273622056
  0
CIRCLE
  5
DCA
  8
2-7
  6
HIDDEN
 10
1.4737737003952851
 20
15.967310960945831
 30
0.0
 40
0.217519692
  0
POLYLINE
  5
DCB
  8
2-7
  6
HIDDEN
 66
     1
 10
0.0
 20
0.0
 30
0.0
 70
     1
  0
VERTEX
  5
129F
  8
2-7
  6
HIDDEN
 10
1.6090191417970841
 20
15.73305898494583
 30
0.0
  0
VERTEX
  5
12A0
  8
2-7
  6
HIDDEN
 10
1.744264583198887
 20
15.967310960945831
 30
0.0
  0
VERTEX
  5
12A1
  8
2-7
  6
HIDDEN
 10
1.6090191417970841
 20
16.20156293694583
 30
0.0
  0
VERTEX
  5
12A2
  8
2-7
  6
HIDDEN
 10
1.338528258993481
 20
16.20156293694583
 30
0.0
  0
VERTEX
  5
12A3
  8
2-7
  6
HIDDEN
 10
1.2032828175916781
 20
15.967310960945831
 30
0.0
  0
VERTEX
  5
12A4
  8
2-7
  6
HIDDEN
 10
1.3385282589934779
 20
15.73305898494583
 30
0.0
  0
SEQEND
  5
12A5
  8
2-7
  6
HIDDEN
  0
CIRCLE
  5
DD6
  8
CENTERLINE
 10
2.733616260395284
 20
15.967310960945831
 30
0.0
 40
1.85039376
  0
LINE
  5
DD9
  8
2-7
 10
4.2706426167988898
 20
3.256497883903279
 30
0.0
 11
3.7162750239916811
 21
3.256497883903279
 31
0.0
  0
LINE
  5
DDA
  8
2-7
 10
3.7229679375916822
 20
3.0188994511032781
 30
0.0
 11
4.2639497031988904
 21
3.0188994511032781
 31
0.0
  0
ARC
  5
DDB
  8
2-7
 10
3.9934588203952859
 20
3.0363289136032772
 30
0.0
 40
0.2182168704999997
 50
184.58122008527729
 51
355.41877991472262
  0
LINE
  5
DDC
  8
2-7
 10
3.1292855643952859
 20
3.268210482703279
 30
0.0
 11
4.8576320763952863
 21
3.2682104827032772
 31
0.0
  0
LINE
  5
DDD
  8
2-7
 10
3.1292855643952842
 20
1.5752970427032791
 30
0.0
 11
3.1292855643952842
 21
3.2682104827032821
 31
0.0
  0
LINE
  5
DDE
  8
2-7
 10
3.1292855643952842
 20
1.5752970427032791
 30
0.0
 11
3.6765296763952828
 21
1.5752970427032811
 31
0.0
  0
LINE
  5
DDF
  8
2-7
 10
3.6765296763952828
 20
1.5752970427032811
 30
0.0
 11
3.6765296763952851
 21
3.268210482703279
 31
0.0
  0
LINE
  5
DE0
  8
2-7
 10
3.7162750239916811
 20
3.256497883903279
 30
0.0
 11
3.7162750239916811
 21
3.268210482703279
 31
0.0
  0
LINE
  5
DE1
  8
2-7
 10
3.7229679375916822
 20
3.0188994511032781
 30
0.0
 11
3.7229679375916822
 21
3.256497883903279
 31
0.0
  0
LINE
  5
DE2
  8
2-7
 10
3.8582133789934852
 20
3.0188994511032781
 30
0.0
 11
3.8582133789934852
 21
3.256497883903279
 31
0.0
  0
LINE
  5
DE3
  8
2-7
 10
4.128704261797087
 20
3.0188994511032781
 30
0.0
 11
4.128704261797087
 21
3.256497883903279
 31
0.0
  0
LINE
  5
DE4
  8
2-7
 10
4.8576320763952863
 20
3.2682104827032772
 30
0.0
 11
4.8576320763952863
 21
4.0650609019032782
 31
0.0
  0
LINE
  5
DE5
  8
2-7
 10
4.2706426167988898
 20
3.256497883903279
 30
0.0
 11
4.2706426167988898
 21
3.268210482703279
 31
0.0
  0
LINE
  5
DE6
  8
2-7
 10
4.2639497031988904
 20
3.0188994511032781
 30
0.0
 11
4.2639497031988904
 21
3.256497883903279
 31
0.0
  0
LINE
  5
DE8
  8
2-7
  6
HIDDEN
 10
3.1292855643952859
 20
3.268210482703279
 30
0.0
 11
3.1292855643952859
 21
4.0650609019032791
 31
0.0
  0
LINE
  5
DF8
  8
2-7
 10
3.0072383163952789
 20
1.5752970427032771
 30
0.0
 11
2.4599942043952798
 21
1.5752970427032791
 31
0.0
  0
LINE
  5
DF9
  8
2-7
 10
3.0072383163952789
 20
1.5752970427032771
 30
0.0
 11
3.0072383163952789
 21
3.256497883903279
 31
0.0
  0
LINE
  5
DFA
  8
2-7
 10
2.4599942043952798
 20
1.5752970427032791
 30
0.0
 11
2.4599942043952798
 21
3.256497883903279
 31
0.0
  0
LINE
  5
E02
  8
2-7
 10
2.2291891330050402
 20
7.3233287227032768
 30
0.0
 11
2.2291891330050402
 21
4.0650609019032728
 31
0.0
  0
LINE
  5
E03
  8
2-7
 10
0.3611443491117737
 20
7.3233287227032751
 30
0.0
 11
0.3611443491117726
 21
4.0650609019032737
 31
0.0
  0
CIRCLE
  5
F4A
  8
2-7
  6
HIDDEN
 10
2.7336162603952832
 20
14.11691720094583
 30
0.0
 40
0.273622056
  0
CIRCLE
  5
F4B
  8
2-7
  6
HIDDEN
 10
2.7336162603952832
 20
14.70746840094583
 30
0.0
 40
0.8641732559999997
  0
CIRCLE
  5
F4C
  8
2-7
  6
HIDDEN
 10
2.7336162603952832
 20
15.29801960094583
 30
0.0
 40
0.273622056
  0
POLYLINE
  5
F4D
  8
2-7
  6
HIDDEN
 66
     1
 10
0.0
 20
0.0
 30
0.0
 70
     1
  0
VERTEX
  5
12A6
  8
2-7
  6
HIDDEN
 10
2.9678682363952831
 20
14.84271384234763
 30
0.0
  0
VERTEX
  5
12A7
  8
2-7
  6
HIDDEN
 10
2.733616260395284
 20
14.97795928374944
 30
0.0
  0
VERTEX
  5
12A8
  8
2-7
  6
HIDDEN
 10
2.4993642843952841
 20
14.84271384234763
 30
0.0
  0
VERTEX
  5
12A9
  8
2-7
  6
HIDDEN
 10
2.499364284395285
 20
14.57222295954403
 30
0.0
  0
VERTEX
  5
12AA
  8
2-7
  6
HIDDEN
 10
2.7336162603952849
 20
14.43697751814223
 30
0.0
  0
VERTEX
  5
12AB
  8
2-7
  6
HIDDEN
 10
2.9678682363952831
 20
14.57222295954403
 30
0.0
  0
SEQEND
  5
12AC
  8
2-7
  6
HIDDEN
  0
CIRCLE
  5
F4E
  8
2-7
  6
HIDDEN
 10
2.7336162603952832
 20
14.70746840094583
 30
0.0
 40
0.217519692
  0
CIRCLE
  5
F4F
  8
2-7
  6
HIDDEN
 10
4.5840100203952829
 20
15.967310960945831
 30
0.0
 40
0.273622056
  0
CIRCLE
  5
F50
  8
2-7
  6
HIDDEN
 10
3.9934588203952859
 20
15.967310960945831
 30
0.0
 40
0.8641732559999997
  0
CIRCLE
  5
F51
  8
2-7
  6
HIDDEN
 10
3.4029076203952839
 20
15.967310960945831
 30
0.0
 40
0.273622056
  0
POLYLINE
  5
F52
  8
2-7
  6
HIDDEN
 66
     1
 10
0.0
 20
0.0
 30
0.0
 70
     1
  0
VERTEX
  5
12AD
  8
2-7
  6
HIDDEN
 10
3.8582133789934829
 20
16.20156293694583
 30
0.0
  0
VERTEX
  5
12AE
  8
2-7
  6
HIDDEN
 10
3.72296793759168
 20
15.967310960945831
 30
0.0
  0
VERTEX
  5
12AF
  8
2-7
  6
HIDDEN
 10
3.8582133789934829
 20
15.73305898494584
 30
0.0
  0
VERTEX
  5
12B0
  8
2-7
  6
HIDDEN
 10
4.1287042617970862
 20
15.73305898494584
 30
0.0
  0
VERTEX
  5
12B1
  8
2-7
  6
HIDDEN
 10
4.2639497031988869
 20
15.967310960945831
 30
0.0
  0
VERTEX
  5
12B2
  8
2-7
  6
HIDDEN
 10
4.128704261797087
 20
16.20156293694583
 30
0.0
  0
SEQEND
  5
12B3
  8
2-7
  6
HIDDEN
  0
CIRCLE
  5
F53
  8
2-7
  6
HIDDEN
 10
3.9934588203952859
 20
15.967310960945831
 30
0.0
 40
0.217519692
  0
CIRCLE
  5
F54
  8
2-7
  6
HIDDEN
 10
2.7336162603952809
 20
17.81770472094583
 30
0.0
 40
0.273622056
  0
CIRCLE
  5
F55
  8
2-7
  6
HIDDEN
 10
2.7336162603952832
 20
17.22715352094583
 30
0.0
 40
0.8641732559999997
  0
CIRCLE
  5
F56
  8
2-7
  6
HIDDEN
 10
2.7336162603952801
 20
16.63660232094583
 30
0.0
 40
0.273622056
  0
POLYLINE
  5
F57
  8
2-7
  6
HIDDEN
 66
     1
 10
0.0
 20
0.0
 30
0.0
 70
     1
  0
VERTEX
  5
12B4
  8
2-7
  6
HIDDEN
 10
2.499364284395281
 20
17.09190807954403
 30
0.0
  0
VERTEX
  5
12B5
  8
2-7
  6
HIDDEN
 10
2.7336162603952801
 20
16.95666263814223
 30
0.0
  0
VERTEX
  5
12B6
  8
2-7
  6
HIDDEN
 10
2.96786823639528
 20
17.09190807954403
 30
0.0
  0
VERTEX
  5
12B7
  8
2-7
  6
HIDDEN
 10
2.9678682363952791
 20
17.36239896234763
 30
0.0
  0
VERTEX
  5
12B8
  8
2-7
  6
HIDDEN
 10
2.7336162603952792
 20
17.49764440374944
 30
0.0
  0
VERTEX
  5
12B9
  8
2-7
  6
HIDDEN
 10
2.4993642843952819
 20
17.36239896234764
 30
0.0
  0
SEQEND
  5
12BA
  8
2-7
  6
HIDDEN
  0
CIRCLE
  5
F58
  8
2-7
  6
HIDDEN
 10
2.7336162603952832
 20
17.22715352094583
 30
0.0
 40
0.217519692
  0
ARC
  5
F59
  8
2-7
 10
2.733616260395284
 20
15.967310960945831
 30
0.0
 40
2.3818898399999999
 50
161.4700327117778
 51
198.5299672882222
  0
LINE
  5
F5A
  8
2-7
 10
0.4752093864310473
 20
16.724277011390839
 30
0.0
 11
1.976650209950281
 21
18.225717834910071
 31
0.0
  0
ARC
  5
F5E
  8
2-7
  6
HIDDEN
 10
2.733616260395284
 20
15.967310960945831
 30
0.0
 40
2.3818898399999999
 50
71.470032711777947
 51
108.5299672882221
  0
ARC
  5
F5F
  8
2-7
 10
2.733616260395284
 20
15.967310960945831
 30
0.0
 40
2.3818898399999999
 50
251.47003271177769
 51
288.52996728822211
  0
ARC
  5
F60
  8
2-7
 10
2.733616260395284
 20
15.967310960945831
 30
0.0
 40
2.3818898399999999
 50
341.47003271177778
 51
18.52996728822205
  0
LINE
  5
F61
  8
2-7
 10
0.4057518994309131
 20
7.3233287227032777
 30
0.0
 11
0.4057518994309131
 21
4.0650609019032737
 31
0.0
  0
LINE
  5
F62
  8
2-7
 10
5.0614806213596486
 20
7.3233287227032777
 30
0.0
 11
5.0614806213596486
 21
4.0650609019032737
 31
0.0
  0
LINE
  5
F63
  8
2-7
 10
5.1060881716787891
 20
7.3233287227032751
 30
0.0
 11
5.10608817167879
 21
4.0650609019032737
 31
0.0
  0
LINE
  5
F64
  8
2-7
 10
3.2380433877855221
 20
7.3233287227032768
 30
0.0
 11
3.2380433877855221
 21
4.0650609019032728
 31
0.0
  0
LINE
  5
F65
  8
2-7
 10
2.3379469563952782
 20
1.5752970427032791
 30
0.0
 11
1.790702844395279
 21
1.5752970427032811
 31
0.0
  0
LINE
  5
F66
  8
2-7
 10
2.3379469563952751
 20
3.268210482703279
 30
0.0
 11
0.6096004443952766
 21
3.2682104827032772
 31
0.0
  0
LINE
  5
F67
  8
2-7
  6
HIDDEN
 10
2.3379469563952751
 20
3.268210482703279
 30
0.0
 11
2.3379469563952751
 21
4.0650609019032791
 31
0.0
  0
LINE
  5
F68
  8
2-7
 10
2.3379469563952782
 20
1.5752970427032791
 30
0.0
 11
2.3379469563952782
 21
3.2682104827032821
 31
0.0
  0
LINE
  5
F69
  8
2-7
 10
0.6096004443952766
 20
3.2682104827032772
 30
0.0
 11
0.6096004443952766
 21
4.0650609019032782
 31
0.0
  0
LINE
  5
F6A
  8
2-7
 10
1.196589903991671
 20
3.256497883903279
 30
0.0
 11
1.7509574967988799
 21
3.256497883903279
 31
0.0
  0
LINE
  5
F6B
  8
2-7
 10
1.744264583198879
 20
3.0188994511032781
 30
0.0
 11
1.2032828175916721
 21
3.0188994511032781
 31
0.0
  0
LINE
  5
F6C
  8
2-7
 10
1.790702844395279
 20
1.5752970427032811
 30
0.0
 11
1.790702844395277
 21
3.268210482703279
 31
0.0
  0
ARC
  5
F6D
  8
2-7
 10
1.473773700395276
 20
3.0363289136032772
 30
0.0
 40
0.2182168704999997
 50
184.58122008527741
 51
355.41877991472262
  0
LINE
  5
F6E
  8
2-7
 10
1.744264583198879
 20
3.0188994511032781
 30
0.0
 11
1.744264583198879
 21
3.256497883903279
 31
0.0
  0
LINE
  5
F6F
  8
2-7
 10
1.7509574967988799
 20
3.256497883903279
 30
0.0
 11
1.7509574967988799
 21
3.268210482703279
 31
0.0
  0
LINE
  5
F70
  8
2-7
 10
1.6090191417970761
 20
3.0188994511032781
 30
0.0
 11
1.6090191417970761
 21
3.256497883903279
 31
0.0
  0
LINE
  5
F71
  8
2-7
 10
1.3385282589934751
 20
3.0188994511032781
 30
0.0
 11
1.3385282589934751
 21
3.256497883903279
 31
0.0
  0
LINE
  5
F72
  8
2-7
 10
1.2032828175916721
 20
3.0188994511032781
 30
0.0
 11
1.2032828175916721
 21
3.256497883903279
 31
0.0
  0
LINE
  5
F73
  8
2-7
 10
1.196589903991671
 20
3.256497883903279
 30
0.0
 11
1.196589903991671
 21
3.268210482703279
 31
0.0
  0
LINE
  5
F74
  8
2-7
 10
1.869443004395283
 20
3.2682104827032799
 30
0.0
 11
1.869443004395283
 21
4.06506090190328
 31
0.0
  0
LINE
  5
F75
  8
2-7
 10
3.5977895163952822
 20
3.2682104827032821
 30
0.0
 11
3.5977895163952822
 21
4.0650609019032826
 31
0.0
  0
LINE
  5
F76
  8
2-7
 10
3.5977895163952822
 20
3.2682104827032821
 30
0.0
 11
1.869443004395283
 21
3.2682104827032799
 31
0.0
  0
CIRCLE
  5
F89
  8
ADAPTER
 10
1.341883932395282
 20
17.359043288945831
 30
0.0
 40
0.12795276
  0
CIRCLE
  5
F8A
  8
ADAPTER
 10
1.341883932395282
 20
14.575578632945829
 30
0.0
 40
0.12795276
  0
CIRCLE
  5
F8B
  8
ADAPTER
 10
4.1253485883952798
 20
14.575578632945829
 30
0.0
 40
0.12795276
  0
LINE
  5
F8E
  8
2-7
 10
1.9766502099502721
 20
13.708904086981599
 30
0.0
 11
0.4752093864310478
 21
15.210344910500821
 31
0.0
  0
LINE
  5
F8F
  8
2-7
 10
4.9920231343595223
 20
15.210344910500829
 30
0.0
 11
3.490582310840292
 21
13.70890408698159
 31
0.0
  0
LINE
  5
F90
  8
2-7
 10
3.4905823108402858
 20
18.225717834910071
 30
0.0
 11
4.9920231343595214
 21
16.724277011390839
 31
0.0
  0
CIRCLE
  5
F91
  8
ADAPTER
 10
2.7336162603952809
 20
15.967310960945831
 30
0.0
 40
2.1259843200000019
  0
LINE
  5
F96
  8
ADAPTER
 10
4.8596005803952842
 20
7.7233287355032791
 30
0.0
 11
4.8596005803952842
 21
7.3233287227032777
 31
0.0
  0
ARC
  5
FDB
  8
2-7
 10
2.7336162603952832
 20
3.0363289136032772
 30
0.0
 40
0.2182168704999997
 50
184.58122008527741
 51
355.41877991472262
  0
LINE
  5
FDC
  8
2-7
 10
3.0041071431988859
 20
3.0188994511032781
 30
0.0
 11
2.463125377591679
 21
3.0188994511032781
 31
0.0
  0
LINE
  5
FDD
  8
2-7
 10
2.4564324639916779
 20
3.256497883903279
 30
0.0
 11
3.0108000567988871
 21
3.256497883903279
 31
0.0
  0
LINE
  5
FDE
  8
2-7
 10
2.463125377591679
 20
3.0188994511032781
 30
0.0
 11
2.463125377591679
 21
3.256497883903279
 31
0.0
  0
LINE
  5
FDF
  8
2-7
 10
2.4564324639916779
 20
3.256497883903279
 30
0.0
 11
2.4564324639916779
 21
3.268210482703279
 31
0.0
  0
LINE
  5
FE0
  8
2-7
 10
2.598370818993482
 20
3.0188994511032781
 30
0.0
 11
2.598370818993482
 21
3.256497883903279
 31
0.0
  0
LINE
  5
FE1
  8
2-7
 10
2.868861701797083
 20
3.0188994511032781
 30
0.0
 11
2.868861701797083
 21
3.256497883903279
 31
0.0
  0
LINE
  5
FE2
  8
2-7
 10
3.0041071431988859
 20
3.0188994511032781
 30
0.0
 11
3.0041071431988859
 21
3.256497883903279
 31
0.0
  0
LINE
  5
FE3
  8
2-7
 10
3.0108000567988871
 20
3.256497883903279
 30
0.0
 11
3.0108000567988871
 21
3.268210482703279
 31
0.0
  0
LINE
  5
1027
  8
2-7
  6
HIDDEN
 10
4.026923388395276
 20
6.8508877627032749
 30
0.0
 11
4.1253485883952763
 21
6.7784975941480967
 31
0.0
  0
LINE
  5
1028
  8
2-7
  6
HIDDEN
 10
4.0072383483952754
 20
6.8902578427032752
 30
0.0
 11
4.2434588283952772
 21
6.890257842703277
 31
0.0
  0
LINE
  5
1029
  8
2-7
  6
HIDDEN
 10
4.2237737883952757
 20
7.3233287227032751
 30
0.0
 11
4.2237737883952748
 21
6.8508877627032749
 31
0.0
  0
LINE
  5
102A
  8
2-7
  6
HIDDEN
 10
4.2434588283952763
 20
7.3233287227032751
 30
0.0
 11
4.2434588283952772
 21
6.890257842703277
 31
0.0
  0
LINE
  5
102B
  8
2-7
  6
HIDDEN
 10
4.2237737883952748
 20
6.8508877627032749
 30
0.0
 11
4.1253485883952763
 21
6.7784975941480967
 31
0.0
  0
LINE
  5
102C
  8
ADAPTER
  6
HIDDEN
 10
4.2533013483952704
 20
7.7233287355032774
 30
0.0
 11
4.2533013483952704
 21
7.3233287227032768
 31
0.0
  0
LINE
  5
102D
  8
2-7
  6
HIDDEN
 10
4.0072383483952763
 20
7.3233287227032751
 30
0.0
 11
4.0072383483952754
 21
6.8902578427032752
 31
0.0
  0
LINE
  5
102E
  8
2-7
  6
HIDDEN
 10
4.026923388395276
 20
7.3233287227032751
 30
0.0
 11
4.026923388395276
 21
6.8508877627032749
 31
0.0
  0
LINE
  5
102F
  8
ADAPTER
  6
HIDDEN
 10
3.9973958283952702
 20
7.7233287355032774
 30
0.0
 11
3.9973958283952702
 21
7.3233287227032768
 31
0.0
  0
LINE
  5
10FA
  8
DRIVE_TANG
  6
HIDDEN
 10
2.9304666603952811
 20
7.4020688827032757
 30
0.0
 11
2.9304666603952811
 21
7.818998029903276
 31
0.0
  0
LINE
  5
10FB
  8
DRIVE_TANG
  6
HIDDEN
 10
2.5367658603952812
 20
7.4020688827032757
 30
0.0
 11
2.5367658603952812
 21
7.818998029903276
 31
0.0
  0
LINE
  5
10FC
  8
DRIVE_TANG
  6
HIDDEN
 10
2.9304666603952811
 20
7.818998029903276
 30
0.0
 11
3.2761359627952809
 21
7.8189980299032769
 31
0.0
  0
TEXT
  5
120B
  8
0
 10
-0.3962313703095077
 20
12.499715417445611
 30
0.0
 40
0.125
  1
THE ADAPTER SHOWN IN THIS DRAWING IS ONLY TO ILLUSTRATE A TYPICAL ADAPTER
  7
ARIAL
  0
ENDSEC
  0
EOF
